Pages

Mengenai Saya

Senin, 21 Januari 2013

Crossing Field Sword art online gitar Tab


CROSSING FIELD:

Intro:

GUITAR 2:

e|------------8------------10--10-p-8----------6-------------|
B|--6--8--10-------6-----------------------10-----10--8--10--|
G|--------------------9--------------------------------------|
D|-----------------------------------------------------------|
A|-----------------------------------------------------------|
E|-----------------------------------------------------------|

GUITAR 1:

e|---------------------------------|
B|---------------------------------|
G|--3------5------7----7--7--7--7--|
D|--3------5------7----7--7--7--7--|
A|--1------3------5----5--5--5--5--|
E|---------------------------------|

GUITAR 2:

e|--13----12--8--8-h-10----10--10--10--10--|
B|-----------------------------------------|
G|-----------------------------------------|
D|-----------------------------------------|
A|-----------------------------------------|
E|-----------------------------------------|


Verse/Estrofa:

GUITAR 2:

e|-------------------------------------------------------|
B|-------------8------------------------8----------------|
G|--10--9--10-----7----7--9--10--9--10-----7------7--10--|
D|-------------------------------------------------------|
A|-------------------------------------------------------|
E|-------------------------------------------------------|

GUITAR 1:

e|------------|
B|------------|
G|--3------5--|
D|--3------5--|
A|--1------3--|
E|------------|

GUITAR 2:

e|--8--------------------|
B|-----------------------|
G|-----10------9--7------|
D|-------------------10--|
A|-----------------------|
E|-----------------------|

GUITAR 1:

e|-----------------------------------------------------------|------------|
B|-----------------------------------------------------------|------------|
G|--7--x--7--7--7--7--x--5--5--x--7--x--7--7--7--7--x--5--5--|--3------5--|
D|--7--x--7--7--7--7--x--5--5--x--7--x--7--7--7--7--x--5--5--|--3------5--|
A|--5--x--5--5--5--5--x--3--3--x--5--x--5--5--5--5--x--3--3--|--1------3--|
E|-----------------------------------------------------------|------------|

GUITAR 2:

e|-----------------------------------------8----8---------|--------------------------|
B|-------------8------------------------8-----------------|--8--8-p-6-------------8--|
G|--10--9--10-----7----7--9--10--9--10-------------10--9--|----------------9--10-----|
D|--------------------------------------------------------|--------------------------|
A|--------------------------------------------------------|--------------------------|
E|--------------------------------------------------------|--------------------------|


Pre-Chorus/Pre-Estribillo:

GUITAR 1:

e|--------1----------0----------1------3--|
B|-----1----------1----------1---------3--|
G|-------------------------------------4--|
D|------------------------0---------------|
A|--1----------0--------------------------|
E|----------------------------------------|

GUITAR 2:

e|--------------------------------------|
B|--10--------8-------------------------|
G|--------10-----9------7--10-------10--|
D|------------------10-----------9------|
A|--------------------------------------|
E|--------------------------------------|

GUITAR 1:

e|----------------------------------------------------|--------5-----3--|
B|----------------------------------------------------|-----------------|
G|--3--3---3--3--3---3--3------3--3---3--3--3---3--3--|--5--5-----5-----|
D|--3--3---3--3--3---3--3------3--3---3--3--3---3--3--|-----------------|
A|--1--1---1--1--1---1--1------1--1---1--1--1---1--1--|-----------------|
E|----------------------------------------------------|-----------------|

GUITAR 2:

e|-----------------------------------------------|------------------|
B|--8------8--10--11----8------8------8--13--11--|--8----10--6-h-8--|
G|-----10------------------10-----10-------------|------------------|
D|-----------------------------------------------|------------------|
A|-----------------------------------------------|------------------|
E|-----------------------------------------------|------------------|


Chorus/Estribillo:

GUITAR 1:

e|--------------------------|-------------------------------------------|
B|--------------------------|-------------------------------------------|
G|--7------5------3------5--|--3--x--3--3--x--3--3--x--3--3--x--5----6--|
D|--7------5------3------5--|--3--x--3--3--x--3--3--x--3--3--x--5----6--|
A|--5------3------1------3--|--1--x--1--1--x--1--1--x--1--1--x--3----4--|
E|--------------------------|-------------------------------------------|

GUITAR 2

e|------------8------------10--10-p-8----------6-----------------|-----------------------------------------------10------|
B|--6--8--10-------6-----------------------10-----10--8--11--10--|--8--10--8--10--8--10--8--10----8--10--10--10------10--|
G|--------------------9------------------------------------------|-------------------------------------------------------|
D|---------------------------------------------------------------|-------------------------------------------------------|
A|---------------------------------------------------------------|-------------------------------------------------------|
E|---------------------------------------------------------------|-------------------------------------------------------|

GUITAR 1:

e|--------------------------|-------------------------------------------|
B|--------------------------|-------------------------------------------|
G|--7------5------3------5--|--3--x--3--3--x--3--3--x--3--3--x--5----6--|
D|--7------5------3------5--|--3--x--3--3--x--3--3--x--3--3--x--5----6--|
A|--5------3------1------3--|--1--x--1--1--x--1--1--x--1--1--x--3----4--|
E|--------------------------|-------------------------------------------|

GUITAR 2:

e|------------8------------10--10-p-8----------6---------8------|-----------------------------------8----------10-----|
B|--6--8--10-------6-----------------------10-----10--8-----10--|--8--10--8--10--8--10--8--10----8-----11--10------8--|
G|--------------------9-----------------------------------------|-----------------------------------------------------|
D|--------------------------------------------------------------|-----------------------------------------------------|
A|--------------------------------------------------------------|-----------------------------------------------------|
E|--------------------------------------------------------------|-----------------------------------------------------|

GUITAR 1:

e|----------------------------------------------------------------------------------|
B|----------------------------------------------------------------------------------|
G|------------------------------------------------------7--7--9--9--10--10--12--12--|
D|--(5)--x--x---x--x--x--x----(7)--x--x---x--x--x--x--------------------------------|
A|--(5)--x--x---x--x--x--x----(7)--x--x---x--x--x--x----5--5--7--7--8---8---10--10--|
E|--(3)--x--x---x--x--x--x----(5)--x--x---x--x--x--x--------------------------------|

GUITAR 2:

e|---------8------------------------------|
B|--8---------10------11--10--8--6--8-----|
G|-----10------------------------------7--|
D|----------------------------------------|
A|----------------------------------------|
E|----------------------------------------|

GUITAR 1:

e|------------------------------------|
B|------------------------------------|
G|--3------5------7--7---7--7---7--7--|
D|--3------5------7--7---7--7---7--7--|
A|--1------3------5--5---5--5---5--5--|
E|------------------------------------|

GUITAR 2:

e|------------------------------------------------------------------------|
B|--10--10--10--10--10--8------------8------------------------------------|
G|-------------------------10-----------10--9-------7--7----7--7----7--7--|
D|-----------------------------10--------------10-------------------------|
A|------------------------------------------------------------------------|
E|------------------------------------------------------------------------|


Outro:

GUITAR 1:

e|-------------------------------|
B|-------------------------------|
G|--7------5------3------5----3--|
D|--7------5------3------5----3--|
A|--5------3------1------3----1--|
E|-------------------------------|

GUITAR 2:

e|--------------------------------------------------------------------|
B|--10---------------------------------10-----------------------------|
G|------12--10--12--9----------------------12--10--12--9----------10--|
D|---------------------10--14--12-------------------------10--14------|
A|--------------------------------------------------------------------|
E|--------------------------------------------------------------------|

CO.ultimate Guitar

0 komentar:

Poskan Komentar